-----------------------------------------------------------------------------|
--------------------------------------------------1--------1--------1---------|
-----------------------------------------------------2--------2--------2------|
-----------0-----------------------0--------------------2--------1--------0---|
-0--0--3------0--0--------0--0--3-----0--0------------------------------------|
--------------------3--4--------------------3--4------------------------------|

----------------------------------------4--------3--------2--1--0-------------|
-------------1--3-----------------2--------2--------2-------------------------|
-------2--2--------2--2--0--1--2-----1--------1--------1----------------------|
----0--------------------------------------------------------------3--0-------|
-3-----------------------------------------------------------------------0----|
------------------------------------------------------------------------------|

-------4--------3--------2--1--0--------0-----3--5---------------------|
-1--------1--------1--------------0--3-----0---------------------------|
----2--------2--------2-------------------------------------------------|
------------------------------------------------------------------------|
------------------------------------------------------------------------|
------------------------------------------------------------------------|


Pues eso.. como de momento tengo los dedos machacados de practicar acordes.. estoy intentando hacer cositas más simples... pero no tengo claro si en las agudas seria 2 1 4, 2 1 3, 2 1 0, o.... 1 2 4, 1 2 3, 2 1 0, aunque ami me suena mejor como he puesto primero

Como lo veis?