Gracias Gracias:  0
Resultados 1 al 9 de 9

Tema: Me he atascado componinendo un final

  1. #1
    Senior Member
    Fecha de ingreso
    May 2005
    Mensajes
    3,098

    Me he atascado componinendo un final

    Args que rabia... me he quedado atascado y no se "salir de ahí" no se como terminarloo..! Os pongo el final a ver si se os ocurre algo

    e ------0-------0--------------------
    B -0---0--2---2---7---7?--5?-5?--3?--
    G ---0------2------------------------
    D ----------------0------------------
    A --------0--------------------------
    E -3---------------------------------


    Las últimas 4 notas con "?" es porque no tengo claras si ponerlas así,y de este modo o como leches terminarlo.. es decir, la última nota buena es 7|0.

    Es muy simple, pero suena bien... pero nada que no se como terminarlo...

  2. #2
    Señor Miembro Avatar de Basie
    Fecha de ingreso
    Sep 2002
    Ubicación
    Madrid
    Mensajes
    2,051

    Re: Me he atascado componinendo un final

    E ------0-------0--3--2--0-----------2-----0-----------------------
    B -0---0--2---2-------------2--2--3-----3----2--3------------------
    G ---0------2-------------------------------------------------------
    D -----------------0-----------------------------0------------------
    A --------0--------------------------------0--------------------------
    E -3----------------------------------3-----------------------------

    A ver que te parece. (he quitado la última nota buena). La penúltima nota del bajo (el A( molaría más que fuera un D grave, pero todo es cuestión de cambiar la afinación).

    La frasecilla esta bonita, graba la composición y súbela, a ver que tal suena toda entera.

    Saludos.

  3. #3
    Senior Member
    Fecha de ingreso
    May 2005
    Mensajes
    3,098

    Re: Me he atascado componinendo un final

    Gracias Basie!!

    Voy a probarlo en un rato en versión Low Sound xDDDDD para no molestar a nadie... a ver que tal suena :P y te digo

  4. #4
    3deseos Avatar de JUANMAX
    Fecha de ingreso
    Jan 2003
    Ubicación
    Bilbao
    Mensajes
    2,417

    Re: Me he atascado componinendo un final

    ¿Como se lee eso?, yo no me entero.

    Tengo que oirlo para decirte algo.

    Venga suerte y al trapo.

  5. #5
    Senior Member
    Fecha de ingreso
    May 2005
    Mensajes
    3,098

    Re: Me he atascado componinendo un final

    Cita Iniciado por Basie Ver mensaje
    E ------0-------0--3--2--0-----------2-----0-----------------------
    B -0---0--2---2-------------2--2--3-----3----2--3------------------
    G ---0------2-------------------------------------------------------
    D -----------------0-----------------------------0------------------
    A --------0--------------------------------0--------------------------
    E -3----------------------------------3-----------------------------

    A ver que te parece. (he quitado la última nota buena). La penúltima nota del bajo (el A( molaría más que fuera un D grave, pero todo es cuestión de cambiar la afinación).

    La frasecilla esta bonita, graba la composición y súbela, a ver que tal suena toda entera.

    Saludos.
    Me has dado una idea buenisima !!! lo he modificado un poco, y así queda el final

    final

    (editado) pongo en respuesta la correcta

    Lo de grabarlo, no tengo micro.. mirare a ver si me aclaro con el guitarpro.. que no sé si poniendo el tab en txt funciona directamente o no (tengo que corregir los espacios para eso)

    Voy a ver como me queda la canción entera y la subo
    Última edición por devnul; 01-05-2007 a las 19:49

  6. #6
    Senior Member
    Fecha de ingreso
    May 2005
    Mensajes
    3,098

    Re: Me he atascado componinendo un final

    Cita Iniciado por JUANMAX Ver mensaje
    ¿Como se lee eso?, yo no me entero.

    Tengo que oirlo para decirte algo.

    Venga suerte y al trapo.
    Cada línea es una cuerda de la guitarra. Los números corresponden
    a las posiciones de cada cuerda, contando cual es la primera nota,sacas cual esta en cada línea

  7. #7
    3deseos Avatar de JUANMAX
    Fecha de ingreso
    Jan 2003
    Ubicación
    Bilbao
    Mensajes
    2,417

    Re: Me he atascado componinendo un final

    ¿La primera nota es el 3 en la sexta cuerda? y luego hay que tocar el 0 de la sexta y así ir bajando por las 5,4,3,2 y primera cuerda.

    ¿Es una escala Puesí, y.... ¿el tiempo?.

    Los números indican el traste ¿no?

    Venga un saludo.

  8. #8
    Senior Member
    Fecha de ingreso
    May 2005
    Mensajes
    3,098

    Re: Me he atascado componinendo un final

    Cita Iniciado por devnul Ver mensaje
    Me has dado una idea buenisima !!! lo he modificado un poco, y así queda el final

    final

    (editado) pongo en respuesta la correcta

    Lo de grabarlo, no tengo micro.. mirare a ver si me aclaro con el guitarpro.. que no sé si poniendo el tab en txt funciona directamente o no (tengo que corregir los espacios para eso)

    Voy a ver como me queda la canción entera y la subo

    Ahora si,final correcto

    e --------0---------0-3-----0--3-----------0-----------
    B -0-----0--2-----2-------0-------2-----2------3-------
    G -----0--------2---------------------2----------------
    D ----------------------------------------------0------
    A ----------0---------------------0--------------------
    E -3------------------0--------------------------------
    Última edición por devnul; 01-05-2007 a las 20:02

  9. #9
    Senior Member
    Fecha de ingreso
    May 2005
    Mensajes
    3,098

    Re: Me he atascado componinendo un final

    Cita Iniciado por JUANMAX Ver mensaje
    ¿La primera nota es el 3 en la sexta cuerda? y luego hay que tocar el 0 de la sexta y así ir bajando por las 5,4,3,2 y primera cuerda.

    ¿Es una escala Puesí, y.... ¿el tiempo?.

    Los números indican el traste ¿no?

    Venga un saludo.
    Exacto

    Para el tiempo fijate en las - entre nota y nota, más separadas dura más tiempo, menos separadas dura menos

Temas similares

  1. Necesito ayuda estoy atascado
    Por TONOWAR en el foro Modelado
    Respuestas: 5
    Último mensaje: 22-10-2010, 21:58
  2. atascado en modelado
    Por Sablex28 en el foro Modelado
    Respuestas: 1
    Último mensaje: 18-07-2009, 15:07
  3. atascado con los planos gt; lt;
    Por n0cks en el foro Infografía General
    Respuestas: 2
    Último mensaje: 03-09-2008, 23:40
  4. atascado
    Por jorgelillo en el foro Trabajos en Proceso
    Respuestas: 3
    Último mensaje: 26-05-2008, 03:04
  5. se queda atascado el pc, en pantalla negra
    Por josejs en el foro Hardware
    Respuestas: 5
    Último mensaje: 29-06-2006, 00:29

Actualmente estos son sus permisos de publicación en el foro.

  • -No puedes crear nuevos temas al no estar registrado o no haber iniciado sesión en el foro.
  • -No puedes responder temas al no estar registrado o no haber iniciado sesión en el foro.
  • -No puedes subir archivos adjuntos al no estar registrado o no haber iniciado sesión en el foro.
  • -No puedes editar tus mensajes al no estar registrado o no haber iniciado sesión en el foro.
  •